And The Address
(Blackmore/Lord)
From "Shades of Deep Purple", 1968
*******************
* *
* h = hammer on *
* p = pull off *
* x = mute *
* v = vibratto *
* / = slide up *
* *
*******************

And The Address deeppurple


Intro:
Chords: D#m Em C# A#
E|--------------------------------------------------------------
B|--------------------------------------------------------------
G|--------------------------------------------------------------
D|----------8---(8)--9---(9)--6---(6)--8--------8-8-8-----------
A|----------6---(6)--7---(7)--4---(4)--8--------8-8-8-----------
E|-------------------------------------6--------6-6-6-----------

E|------------------------------------------------------------------
B|------------------------------------------------------------------
G|--------8-8h9p8----8v---------------------------------------------
D|---8-11---------11----11v-8-7-6---6------------8-6-8----------4---
A|--------------------------------9---9-6h9p6----6-4-8--4---4-------
E|--------------------------------------------9------6----6---6-----

"Verse": Play 4 times (4th time without last 5 notes)
E|---------------------------------------------------
B|-------7-7---------7-7-----------------------------
G|-------6-6---------6-6-----------------------------
D|-------5-5---------5-5---------4-------------------
A|---x-x-6-6-x-x-x-x-6-6-4---4-----------------------
E|-------------------------6---6---------------------

"Chorus":
Chords: B F# G#m B A#m G# F#
E|-------------------------------------------------------------------
B|-------------------------------------------------------------------
G|--------/8--6------------------------------------------------------
D|---------------8----/8--6--------------8h11p8--8-6---6-------------
A|---------------------------9---6-9-6-9-------------9---9-6h9p6-----
E|---------------------------------------------------------------9---
D# C# A#
E|--------------------------------------------------------------
B|--------------------------------------------------------------
G|--------------------------------------------------------------
D|---8--6---8----------4----------------------------------------
A|---6--4---8--4---4--------------------------------------------
E|----------6----6---6------------------------------------------





     
     
    Аудио шедевры Deep Purple.
     
     
    Deep Purple, Higwaystar, Video.
                      
     
     
     Lirycs   Lirycs  Discographies Ian Gillan  Discographies Roger Glover  Discographies John Lord  Discographies Richard Blackmore  Discographies Ian Paice

    Deep Purple



      Deep Purple Magazine Gallery. 1-5  Deep Purple Magazine Gallery. 6-9  Deep Purple Magazine Gallery. 10-12  Ian Gillan Magazine Gallery  Purple Personnel Magazine Gallery

        
 
 
Russian Unofficial Fan Site Deep Purple 2005 © 2017
 Яндекс цитирования