Black Night 5
(Blackmore/Gillan/Glover/Lord/Paice)
A single from 1970. Recorded during the "In Rock" sessions.
Now included on the remastered CD of "In Rock".
Bass Tablature
INTRO
G---9--9--9--9--9--9--|--7--7--7--7--7--7--|--------------------|--------------------|
D---------------------|--------------------|--9--9--9--9--9--9--|--5--5--5--5--5--5--|
A---------------------|--------------------|--------------------|--------------------|
E---------------------|--------------------|--------------------|--------------------|
A
G-------------------------|-------------------------|--------|---------|-----------------------|
D-------5-----------------|-------5-------7--5------|--------|--5------|------5----------------|
A---7-------7--5-------5--|---7-------7----------7--|--5--7--|------7--|--7-------7--5-------5-|
E------------------7------|-------------------------|--------|---------|-----------------7-----|
G-------------------------|---------|----------|
D-------5-------7--5------|---------|---5------|
A---7-------7----------7--|---5--7--|-------7--|
E-------------------------|---------|----------|
B
G---------------------------|---------------------------|---------------------------|
D---------------------------|---------------------------|---------------------------|
A---5--7-----7-----7-----7--|---5--7-----7-----7-----7--|---5--7-----7-----7-----7--|
E---------O-----O-----O-----|---------O-----O-----O-----|----------O-----O-----O----|
G---------------------------|---------------------------|---------------------------|
D---------------------------|---------------------------|---------------------------|
A---5--7-----7-----7-----7--|---5--7-----7-----7-----7--|---5--7-----7-----7-----7--|
E---------O-----O-----O-----|---------O-----O-----O-----|----------O-----O-----O----|
G---7-hammer-9--7-------7-------7--|---9-slide-11--9--7--9--7------|------------------------|
D-------------------9-------9------|----------------------------9--|---7--7--5--7--5--------|
A----------------------------------|-------------------------------|-------------------7--5-|
E----------------------------------|-------------------------------|------------------------|
G-------------------------|---------------------------|--------------------------------------9-|
D---5--5--3--5--3---------|------------------5--7--9--|---7--7--9--5--5--7-----5--7-slide-9----|
A-------------------5--3--|------7-----7--7-----------|---------------------7------------------|
E-------------------------|---O-----O-----------------|----------------------------------------|
G------------------------|------------------------|
D---7--7--5--7--5--------|---5--5--3--5--3--------|
A------------------7--5--|------------------5--2--|
E------------------------|------------------------|
GET BACK TO A; AFTER B
G---7-hammer-9--7-----7-----7--|---9-slide-11--9--7--9--7-----|------------------------|
D------------------9-----9-----|---------------------------9--|---7--7--5--7--5--------|
A------------------------------|------------------------------|------------------7--5--|
E------------------------------|------------------------------|------------------------|
G------------------------|--------------------------------------|
D---5--5--3--5--3--------|------------------5--7--9-------5--7--|
A------------------5--3--|------7-----7--7-------------7--------|
E------------------------|---O-----O----------------------------|
G--------------------------------------9--|------------------------|------------------------|
D---7--7--9--5--5--7-----5--7-slide-9-----|---7--7--5--7--5--------|---5--5--3--5--3--------|
A---------------------7-------------------|------------------7--5--|------------------5--2--|
E-----------------------------------------|------------------------|------------------------|
B
G---------------------------|
D---------------------------| PLAY 12 TIMES
A---5--7-----7-----7-----7--|
E---------O-----O-----O-----|
G------------------------------|-----------------------------|
D------------------------------|-----------------------------|
A---5-hammer-7--5-----5-----5--|---7-slide-9--7--5--7--5-----|
E------------------7-----7-----|--------------------------7--|
C
G---------------------------|
D---5--7-----7-----7-----7--| PLAY 12 TIMES
A---------O-----O-----O-----|
E---------------------------|
GET BACK TO A; AFTER B
G---7-hammer-9--7-----7-----7--|---9-slide-11--9--7--9--7-----|------------------------|
D------------------9-----9-----|---------------------------9--|---7--7--5--7--5--------|
A------------------------------|------------------------------|------------------7--5--|
E------------------------------|------------------------------|------------------------|
G------------------------|---------------------------|------------------------------------------|
D---5--5--3--5--3--------|------------------5--7--9--|---7--7--9--5--5--7--5-----5-----7-slide-9|
A------------------5--3--|------7-----7--7-----------|------------------------7-----7-----------|
E------------------------|---O-----O-----------------|------------------------------------------|
G------------------------|------------------------|
D---7--7--5--7--5--------|---5--5--3--5--3--------|
A------------------7--5--|------------------5--2--|
E------------------------|------------------------|
GET BACK A, AFTER
D
G---------------------------|
D---------------------------|
A---5--7-----7-----7-----7--|
E---------O-----O-----O-----|





     
     
    Аудио шедевры Deep Purple.
     
     
    Deep Purple, Higwaystar, Video.
                      
     
     
     Lirycs   Lirycs  Discographies Ian Gillan  Discographies Roger Glover  Discographies John Lord  Discographies Richard Blackmore  Discographies Ian Paice

    Deep Purple



      Deep Purple Magazine Gallery. 1-5  Deep Purple Magazine Gallery. 6-9  Deep Purple Magazine Gallery. 10-12  Ian Gillan Magazine Gallery  Purple Personnel Magazine Gallery

        
 
 
Russian Unofficial Fan Site Deep Purple 2005 © 2019
 Яндекс цитирования