Child In Time (Bass)
(Blackmore/Gillan/Glover/Lord/Paice)
From "In Rock", 1970
INTRO
|-------|-------|-------|-------|-------|-------|-------|-------|
|*------|-------|-------|------*|-------|-------|-------|-------|
|*------|-------|-------|------*|-------|-------|-------|-------|
|-------|-------|-------|-------|-------|-------|-------|-------|
%A
(2xonly)
Sweet child... you'll see... the line... good and bad see the... shooting at..
|--------------|--------------|--------------|--------------|--------------|--------------|
|---7----5--5--|---7----3--3--|---5----5--5--|---7----5--5--|---7----5--5--|---7----5--5--|
|--------------|--------------|--------------|--------------|--------------|--------------|
|--------------|--------------|--------------|--------------|--------------|--------------|
(2xonly)
bullets flying (second time)
|--------------|----------------------|
|---7----5--5--|---5--5--(7----5--5-)-|
|--------------|----------------------|
|--------------|----------------------|
B
if you've... oh lord... and you've... oh by flying.. you'd better..
|--------------|--------------|--------------|--------------|--------------|--------------|
|---7----5--5--|---7----3--3--|---5----5--5--|---7----5--5--|---7----5--5--|---7----5--5--|
|--------------|--------------|--------------|--------------|--------------|--------------|
|--------------|--------------|--------------|--------------|--------------|--------------|
bow your head wait for (second time)
|--------------|------------------------|
|---7----5--5--|---5--5---(7----5--5-)--|
|--------------|------------------------|
|--------------|------------------------|
C
woo__________________________ woo__________________________ woo_________________________
|------------------------------|------------------------------|------------------------------|
|*--7-----7-----7-----5-----5--|---7-----7-----7-----3-----3--|---5-----5-----5-----5-----5--|
|*-----7-----7-----7-----5-----|------7-----7-----7-----3-----|------5-----5-----5-----5-----|
|------------------------------|------------------------------|------------------------------|
woo________________________ (second time )
|----------------------------------------------------------|
|---7-----7-----7-----5-----5-(---7-----7-----7---------)-*|
|------7-----7-----7-----5----(------7-----7------------)-*|
|-----------------------------(---------------------3--3)--|
D
(1x) oh I wanna hear you sing
ah________________ ah________________ ah________________ (3x) oh I gotta hear you sing
|------------------|------------------|------------------|------------------------------|
|*-----------------|------------------|------------------|-----------------------------*|
|*-----------------|------------------|------------------|-----------------------------*|
|---5---5---5---5--|---5---5---5---1--|---3---3---3---3--|---5---5---5---3--------------|
E
ah_________________________(second time )
|----------------------------------------------------|
|*---------------------------------------------------|
|*---------------------------------------------------|
|---5--5--5--5--5--5--3---(5--5--5--5--5--5--3--3--)-|
ah________________________ (second time )
|----------------------------------------------------|
|----------------------------------------------------|
|----------------------------------------------------|
|---5--5--5--5--5--5--1---(5--5--5--5--5--5--1--1--)-|
ah________________________ (second time )
|----------------------------------------------------|
|----------------------------------------------------|
|----------------------------------------------------|
|---3--3--3--3--3--3--3---(3--3--3--3--3--3--3--3--)-|
(second time )
|----------------------------------------------------|
|---------------------------------------------------*|
|---------------------------------------------------*|
|---5--5--5--5--5--5--3---(5--5--5--5--5--5--3--3--)-|
F
|---------------------------------|------------------------------|------------------------------|
|---7--7--7--7--7--7--7--5--5--5--|---7--7--7--7--7--7--3--3--3--|---5--5--5--5--5--5--5--5--5--|
|---------------------------------|------------------------------|------------------------------|
|---------------------------------|------------------------------|------------------------------|
|-------------------------------------------|
|---7--7--7--7--7--7----7--5----------------|
|------------------------------7--6--5------|
|----------------------------------------8--|
G
|---------------------------------|---------------------------------------------|
|---7--7--7-----5--7---5----------|---7---7---------------5--7-P-5--------------|
|-------------------------7--5----|---------------5---7--------------7---5------|
|-------------------------------8-|-----------8------------------------------8--|
|------------------------------------------|------9--7--5-----7-P-5---------------------------|
|---5---5-----------------------4---5---6--|---7-----------7---------7--5-----7-P-5-----------|
|-------------------5---7---8--------------|-------------------------------7---------7--5--3--|
|-----------7---8--------------------------|--------------------------------------------------|
|------------------------------------|------------------------------|
|---7--7--7--------------------------|---7--7--5--------------------|
|------------3--5--3--5--3-----------|------------7--5--5--3--------|
|---------------------------5--3--O--|------------------------5--3--|
|---------------------------------|----------------------------------|
|---5--5--------------3--4--5--6--|---7--7---7--5--------------------|
|---------2--3--4--5--------------|----------------7--5--5--3--------|
|---------------------------------|----------------------------5--3--|
H 19X
|---------------|------------------|---------------|--------------------|
|*-----7--7--7--|---7--7--7--7--7--|---7--7--7--7--|---7--7--7--7--7--7*|
|*--------------|------------------|---------------|-------------------*|
|---5-----------|------------------|---------------|--------------------|
I (second time ) (second time )
|------------------------------------|-------------------------------------------|
|*---7--7--7--7--(-7--7--7--7--5---)-|-(-7--7--7--7--5---)--------------5--5--6--|
|*---------------(---------------7-)-|-(---------------7-)-----5--6--7-----------|
|------------------------------------|----------------------8--------------------|
(second time ) (second time )
|-------------------------------------------|------------------------------------|
|-(-7--7--7--7--5---)--------------5--5--6--|---7--7--7--7--(-7--7--7--7--5---)-*|
|-(---------------7-)-----5--6--7-----------|---------------(---------------7-)-*|
|----------------------8--------------------|------------------------------------|
J
1_____________________
|---------------------|---------------------|---------------------|----------------------|
|*--7--7--7--7--5-----|---7--7--7--7--5-----|---7--7--7--7--5-----|---7--7--7--7--5-----*|
|*-----------------7--|------------------7--|------------------7--|------------------7--*|
|---------------------|---------------------|---------------------|----------------------|
2____________________
|---------------------|
|---7--7--7--5-----7--|
|---------------7-----|
|---------------------|
K
CODA_____________________________
|-----|-----|-----|-----|-----|-----|-----|------|------------------|---------------|
|-----|-----|-----|-----|-----|-----|-----|---5--|------------------|---------------|
|-----|-----|-----|-----|-----|-----|-----|------|------7--7--7--7--|---7--7--7--7--|
|-----|-----|-----|-----|-----|-----|-----|------|---O--------------|---------------|
L oh
|---------------|------------------------------------------------|
|---------------|------------------------------------------------|
|---7--7--7--7--|---7--8--7--8--7--8--7--8--7--8--7--8--7--8--7--|
|---------------|------------------------------------------------|
oh oh oh oh no
|------------------------------------------------|----------------------------------------------|
|------------------------------------------------|----------------------------------------------|
|---7--8--7--8--7--8--7--8--7--8--7--8--7--8--7--|---7--8--7--8--7--8--7--8--7--8--7--8--7--8--7|
|------------------------------------------------|----------------------------------------------|
M
oh oh no oh no oh ain't gonna...
|---------------|---------------|---------------|---------------|---------------|
|---------------|---------------|---------------|---------------|---------------|
|---7-7-7-7-7-7-|---7-7-7-7-7-7-|---7-7-7-7-7-7-|---7-7-7-7-7-7-|---7-7-7-7-7-7-|
|---------------|---------------|---------------|---------------|---------------|
|-----------------------------------------|----------------------------------------|
|-----------------------------------------|----------------------------------------|
|---7-7-7-7-7-8-8-8-8-9-9-9-9-1O-1O-1O-1O-|---7---8---9--1O---8-9-1O-11-9-1O-11-12-|
|-----------------------------------------|----------------------------------------|
|----------------------------------------------|
|----------------------------------------------|
|---7-8-9-1O-8-9-1O-11-9-1O-11-12-1O-11-12-13--|
|----------------------------------------------|
|---------------------------------------------------|
|---------------------------------------12-13-14-15-|
|---11-12-13-14-12-13-14-15-13-14-15-16-------------|
|---------------------------------------------------|
|------------------------------------------|-------------------------|------------------|
|---13-14-15-16-14-15-16-17-15-16-17-18-18-|---18------14-----9--12--|---13------7-S-9--|
|------------------------------------------|-------------------------|------------------|
|------------------------------------------|-------------------------|------------------|
|----------------19-21----------------19-21----------|------|
|----------------------19-19-21-19-17-------21-19-17-|---19-|
|---O--------O---------------------------------------|------|





     
     
    Аудио шедевры Deep Purple.
     
     
    Deep Purple, Higwaystar, Video.
                      
     
     
     Lirycs   Lirycs  Discographies Ian Gillan  Discographies Roger Glover  Discographies John Lord  Discographies Richard Blackmore  Discographies Ian Paice

    Deep Purple



      Deep Purple Magazine Gallery. 1-5  Deep Purple Magazine Gallery. 6-9  Deep Purple Magazine Gallery. 10-12  Ian Gillan Magazine Gallery  Purple Personnel Magazine Gallery

        
 
 
Russian Unofficial Fan Site Deep Purple 2005 © 2019
 Яндекс цитирования