Demon's Eye 1
(Blackmore/Gillan/Glover/Lord/Paice)
From "Fireball", 1971
Key: Gm
First riff:
Gm
Gm

e-----------------------3-------
B-----------------------3-------
G--------3--------------3-------
D-----------5-----------5-------
A---5----------5--------5-------
E------------------6-3-(3)------
Second riff:
Cm
Cm

e-----------------------3-------
B--------4--------------4-------
G------------5----------5-------
D---5-----------5-------5-------
A------------------6-3-(3)------
E-----------------------x-------
"Chorus" riff:
Sly, sly
like a demon's eye

Bb > C (chords)
e---------------------------------------------------------------------------
B---------------------------------------------------------------------------
G--10-12----10\12--7\10--5\7--3\5-------------------------------------------
D--10-12-------------------------------------------3--5---------------------
A--------------------------------------------------3--5---------------------
E---------------------------------------------------------------------------
verse 1:
(Riff 1) Now, I don't mind
(Riff 1) just what you say.

(Riff 1) I never hurt you babe,
(Riff 1) never hurt you any way.

(Riff 2) No, I don't care,
(Riff 2) what you do

(Riff 1) Just as long as
(Riff 1) it ain't me and you.


chorus: sly, like a demon's eye.....
verse 2:
Now everything's good, I said that everything's fine.
You don't know, you don't know, It's the end of your time.
How does it feel to be turned away?
I've known it baby, almost every day.
Chorus:
I don't need you, anymore
I don't want you babe, hanging 'round my door
You slip'n'slide, around my brain
If you think you're so clever, She'd know you're insane.
Chorus:
I don't mind, just what you say.
I never hurt you anyway
Everything's good, and everything's fine





     
     
    Аудио шедевры Deep Purple.
     
     
    Deep Purple, Higwaystar, Video.
     
                      
     
     
     Lirycs   Lirycs  Discographies Ian Gillan  Discographies Roger Glover  Discographies John Lord  Discographies Richard Blackmore  Discographies Ian Paice

    Deep Purple



      Deep Purple Magazine Gallery. 1-5  Deep Purple Magazine Gallery. 6-9  Deep Purple Magazine Gallery. 10-12  Ian Gillan Magazine Gallery  Purple Personnel Magazine Gallery

        
 
 
Russian Unofficial Fan Site Deep Purple 2005 © 2021
 Яндекс цитирования