Fireball 1 (Bass)
(Blackmore/Gillan/Glover/Lord/Paice)
From "Fireball", 1971
intro the
|-----|-----|-----|------|-----|-----|-----|-----|-----|-------|
|-----|-----|-----|------|-----|-----|-----|-----|-----|-------|
|-----|-----|-----|------|-----|-----|-----|-----|-----|---11--|
|-----|-----|-----|------|-----|-----|-----|-----|-----|-------|
% 1,2
A
(1,4) golden light... magic bewitches
(2) tried to... way you and touch
(3) racing like a... gemini don't know
|----------|-----------|---------|---------2--4--|---------|---------2--4--|
|*---------|-----O-----|---------|--2-S-4--------|---------|--2-S-4--------|
|*--2---2--|--2-----O--|--2---2--|---------------|--2---2--|---------------|
|----------|-----------|---------|---------------|---------|---------------|
you gaze you stand they be bop
my heart you lips me burning
I like my head and mind is
|---------|---------2--4--|---------|---------------|-------------------|
|---------|--2-S-4--------|---------|-----4---2--O--|---------------2-S-|
|--2---2--|---------------|--2---2--|--2------------|--2---2--2--2------|
|---------|---------------|---------|---------------|-------------------|
you they wonder oh yeah where I you
and people you're wanna
but now I you down golden
|------2-----4-----|----------|------------|---4----2------|------------|
|---4--------------|----------|------O-----|------------4--|---2--------|
|------------------|---2---2--|---2-----O--|---------------|------2--2--|
|------------------|----------|------------|---------------|------------|
B
1,3,4 oh my love it's long where you're
2 oh my soul it's long where you're

|------------|-------------|-----1--2--|-----3--4--1--|--4-----------|
|---------O--|---1---2--2--|--2--------|--------------|-----2--3--4--|
|---O--4-----|-------------|-----------|--------------|--------------|
|------------|-------------|-----------|--------------|--------------|
from it's a long way 1,2 to CODA
from it's a long way
|-----2--2--4--|--------3--3--4--|
|--4-----------|--4--4-----------|
|--------------|-----------------|
|--------------|-----------------|
1._________________________________
|--4--5---5--6--3--|------|-------|
|------------------|------|------*|
|------------------|--11--|---11-*|
|------------------|------|-------|
2.___________________________
|--4--6--6--9--|--11--|-----|
|--------------|------|-----|
|--------------|------|-----|
|--------------|------|-----|
C
ma... gic woman my soul things me have never
|--------|--------|---------|---------|--5--------|-----5-----|-----------|
|--2--2--|--2--2--|---------|---------|-----5-----|--5-----5--|-----------|
|--------|--------|---4--4--|---4--4--|--------3--|-----------|-----2--2--|
|--------|--------|---------|---------|-----------|-----------|--3--------|
magic... wo____man don't know
|--------------|--------------O--|---1--2-----|--2-----O--O--O-----|
|--O-----------|--O--O--4--4-----|---------4--|-----------------4--|
|-----2--3--4--|-----------------|------------|--------------------|
|--------------|-----------------|------------|--------------------|
electric me I love I love you so
|--------------|-----------|--------------|--------------|--------------|
|--4--2--O-----|--4--4--4--|--4--4--4--4--|--4--4--4--4--|--4--4--4--4--|
|-----------4--|-----------|--------------|--------------|--------------|
|--------------|-----------|--------------|--------------|--------------|
oh____________________________________
|--------------|--------------|-----------|-----------|
|--4--4--4--4--|--4--4--4--4--|-----------|--2--2--4--|
|--------------|--------------|--1--2--4--|-----------|
|--------------|--------------|-----------|-----------|
CODA 1
|--4--5---6--3--|------|------|
|---------------|------|------|
|---------------|--1O--|--1O--|
|---------------|------|------|
D
|-----|-----|-----|-----|-----|-----|-----|-----|-----|-----|-----|
|-----|-----|-----|-----|-----|-----|-----|-----|-----|-----|-----|
|--2--|-----|-----|-----|-----|-----|-----|-----|-----|-----|-----|
|-----|-----|-----|-----|-----|-----|-----|-----|-----|-----|-----|
|-----|-----|-----|-----|-----|
|-----|-----|-----|-----|-----|
|-----|-----|-----|-----|-----|
|-----|-----|-----|-----|-----|
E organ solo
|-----|-----|--------|-----|-----|-----|--3--4--------|---------------|--------------|
|-----|-----|--------|-----|-----|-----|--------1--2--|--3--4---------|--------------|
|--2--|-----|--2--2--|-----|--2--|-----|--------------|---------------|--------------|
|-----|-----|--------|-----|-----|-----|--------------|---------O--1--|--2--3--4--O--|
F
|--------|-----------|--------|---------2--4--|--------|-----------|--------|---------2--4--|
|--------|-----2--O--|--------|--2-S-4--------|--------|-----O-----|--------|--2-S-4--------|
|--2--2--|--2--------|--2--2--|---------------|--2--2--|--2-----O--|--2--2--|---------------|
|--------|-----------|--------|---------------|--------|-----------|--------|---------------|
|--------|-----------|--------|-----------|--------|--4--2-----------|-----------------|
|--------|-----O-----|--------|--4--2--O--|--------|--------4--2--O--|-----------O--2--|
|--2--2--|--2-----O--|--2--2--|-----------|--2--2--|-----------------|--2--2--2--------|
|--------|-----------|--------|-----------|--------|-----------------|-----------------|
|--------2--4--|
|--3--4--------|
|--------------|
|--------------|
CODA 2
|--4--5--6--9--|--11--|-----|
|--------------|------|-----|
|--------------|------|-----|
|--------------|------|-----|
G tambourine
|--------|-----------|--------|---------2--4--|--------|------------4--|--------|
|--------|-----O-----|--------|--2-S-4--------|--------|--4--2-S-4-----|--------|
|--2--2--|--2-----O--|--2--2--|---------------|--2--2--|---------------|--2--2--|
|--------|-----------|--------|---------------|--------|---------------|--------|
|--4--4--2-----------|--------|-----------|-----------|-----------|--------|-----------|
|-----------4--O-----|--------|--4--2--O--|--4--2--O--|--4--2--O--|*-------|--4--2--O--|
|-----------------O--|--2--2--|-----------|-----------|-----------|*-2--2--|-----------|
|--------------------|--------|-----------|-----------|-----------|--------|-----------|
|-----------|-----------|
|--4--2--O--|--4--2--O-*|
|-----------|----------*|
|-----------|-----------|





     
     
    Аудио шедевры Deep Purple.
     
     
    Deep Purple, Higwaystar, Video.
     
                      
     
     
     Lirycs   Lirycs  Discographies Ian Gillan  Discographies Roger Glover  Discographies John Lord  Discographies Richard Blackmore  Discographies Ian Paice

    Deep Purple



      Deep Purple Magazine Gallery. 1-5  Deep Purple Magazine Gallery. 6-9  Deep Purple Magazine Gallery. 10-12  Ian Gillan Magazine Gallery  Purple Personnel Magazine Gallery

        
 
 
Russian Unofficial Fan Site Deep Purple 2005 © 2021
 Яндекс цитирования