Hard Lovin Man (Bass)
(Blackmore/Gillan/Glover/Lord/Paice)
From "In Rock", 1970.
intro 12x
|---------------------------|--------------------|-------------------|
|*--7-----7-----7-----7-----|---7----7-----5/1O-*|---5-5-5-5-5-5-5-5-|
|*-----O-----O-----O-----O--|-----O-----O-------*|-------------------|
|---------------------------|--------------------|-------------------|
|---------------------------------|
|----------3---------3------------|
|---3-H-5-----3-H-5-----5-P-3-----|
|------------------------------6--|
verse 4x
|---------------------------|---------------------|---7-7-7-7-7-7-7-7--|------1O---------|
|*--5-----5-----5-----5-----|---5-----5-----3/8--*|--------------------|---8------8--1O--|
|*-----5-----5-----5-----5--|------5-----5-------*|--------------------|-----------------|
|---------------------------|---------------------|--------------------|-----------------|
|-----|--------------|
|-----|---1O--8------|
|-----|----------1O--|
|-----|--------------|
intro 2 4x
|---------------------------|----------------------|--------------------|
|*--7-----7-----7-----7-----|---7-----7-----5/1O--*|---5-5-5-5-5-5-5-5--|
|*-----O-----O-----O-----O--|------O-----O--------*|--------------------|
|---------------------------|----------------------|--------------------|
|---------------------------------|
|----------3---------3------------|
|---3-H-5-----3-H-5-----5-P-3-----|
|------------------------------6--|
verse 1x
intro 3 3x
|---------------------------|---------------------|-----------------------6--6--7--8-|
|*--7-----7-----7-----7-----|---7-----7-----5/1O-*|---7--7--9--9--1O--1O-------------|
|*-----O-----O-----O-----O--|------O-----O-------*|----------------------------------|
|---------------------------|---------------------|----------------------------------|
keyboard solo 37x
|--------------------------|---------------------------|---------------------------|
|*------------------------*|*--------------------------|---------------------------|
|*--7-----7-----7-----7---*|*--7-----7-----7-----7-----|---5-----5-----O--4--5--6--|
|------O-----O-----O-----O-|------7-----7-----7-----7--|------5-----5--------------|

2x
|---------------------------|--------------------------|
|---------------------------|-------------------------*|
|------2-----2-----2-----2--|-----2-----2-----2-----2-*|
|---O-----O-----O-----O-----|---O-----O-----O-----O----|
guitar solo 12x 14x
|---------------------------|--------------------------|
|*--7-----7-----7-----7----*|*------------------------*|
|*-----7-----7-----7-----7-*|*--7-----7-----7-----7---*|
|---------------------------|------7-----7-----7-----7-|
|---------------------------|---------------------------|---------------------------|
|*--------------------------|---------------------------|---------------------------|
|*--7-----7-----7-----7-----|---5-----5-----O--4--5--6--|------2-----2-----2-----2--|
|------7-----7-----7-----7--|------5-----5--------------|---O-----O-----O-----O-----|
2x
|--------------------------|---------------------------|--------------------------|
|-------------------------*|------5-----5-----5-----5--|-----7-----7-----7-----7--|
|-----2-----2-----2-----2-*|---3-----3-----3-----3-----|---5-----5-----5-----5----|
|---O-----O-----O-----O----|---------------------------|--------------------------|
|---------------------------|----------------------------|
|------9-----9-----9-----9--|------9------9-----9-----9--|
|---7-----7-----7-----7-----|---7-----7-----7-----7------|
|---------------------------|----------------------------|
INTRO2 1x chorus 1x 4x
|---------------------------|----------------------|---------------------------|
|*--7-----7-----7-----7-----|---7-----7-----5/1O--*|---------------------------|
|*-----O-----O-----O-----O--|------O-----O--------*|---7--5--7--5--7--5--5--7--|
|---------------------------|----------------------|---------------------------|
|---------------------------|---------------------------|------------------------------|
|------------------------5--|------------------------5--|---7--9--7--------------------|
|---7--5--7--5--7--5--7-----|---7--5--7--5--7--5--7-----|------------1O--7------7--1O--|
|---------------------------|---------------------------|-------------------1O---------|
|----------------------------|
|*--------------------------*|
|*--7--5--7--5--7--5--7--5--*|
|----------------------------|





     
     
    Аудио шедевры Deep Purple.
     
     
    Deep Purple, Higwaystar, Video.
                      
     
     
     Lirycs   Lirycs  Discographies Ian Gillan  Discographies Roger Glover  Discographies John Lord  Discographies Richard Blackmore  Discographies Ian Paice

    Deep Purple



      Deep Purple Magazine Gallery. 1-5  Deep Purple Magazine Gallery. 6-9  Deep Purple Magazine Gallery. 10-12  Ian Gillan Magazine Gallery  Purple Personnel Magazine Gallery

        
 
 
Russian Unofficial Fan Site Deep Purple 2005 © 2019
 Яндекс цитирования