Into The Fire 2
(Blackmore/Gillan/Glover/Lord/Paice)
From "In Rock", 1970
Main Riff
e|----------------------------------|---------------------|
B|----------------------------------|---------------------|
G|----------------------------------|---------------------|
D|----------0-0--1-2----------------|---------------0-1---|
A|--2-2-0-2--------------------0-1--|--2-0--1-2-3-4-------|
E|-------------------0-1-2-3-4------|---------------------|
Riff 2
e|-------------------------|----------------------------------------|
B|-------------------------|----------------------------------------|
G|-------------------------|----4--2-4-2-------4--------------------|
D|----2---2---2------------|-------------/4---------2-0-------------|
A|-------------------------|--2--------------2----------2-0---------|
E|--0---0---0---0--0-3-5---|--------------------------------3-0-0---|

Take the trouble to decide the things you do
Will not be the things that don't appeal to you
See the mess your makin' can't you see your fakin'
Gonna make it hard for you, you're gonna
into the fire!!!

Turn on the mandrake that was given to you
See if you can make it like the others do
Feel the blood a knockin' when you're finger poppin'
Gonna make it hard for you, you're gonna
into the fire!!!

Sorry, no solo! Really great track to impovise your own solo playing!
(Play Riff 2 under the solo)

Riff 3
e|--------------------------------------------------|
B|--------------------------------------------------|
G|--4-4---4-4-----------------3-4-------------------|
D|--4-4---4-4-------3-4-----------------------0-1---|
A|--2-2---2-2---1-2-------1-2-------0-1-2-3-4-------|
E|--------------------------------------------------|

Stop your bleeding mind before it's over and done
Listen very closely to the message I've sung
Feel the blood a knockin' when you're finger poppin'
Gonna get a message through, you're gonna
into the fire!!!

End
e|----------------------------|
B|----------------------------|
G|----------------3-4---------|
D|------3-4---------------9---|
A|--1-2-------1-2---------7---|
E|------------------------0---|





     
     
    Аудио шедевры Deep Purple.
     
     
    Deep Purple, Higwaystar, Video.
                      
     
     
     Lirycs   Lirycs  Discographies Ian Gillan  Discographies Roger Glover  Discographies John Lord  Discographies Richard Blackmore  Discographies Ian Paice

    Deep Purple



      Deep Purple Magazine Gallery. 1-5  Deep Purple Magazine Gallery. 6-9  Deep Purple Magazine Gallery. 10-12  Ian Gillan Magazine Gallery  Purple Personnel Magazine Gallery

        
 
 
Russian Unofficial Fan Site Deep Purple 2005 © 2019
 Яндекс цитирования