Into The Fire (Bass)
(Blackmore/Gillan/Glover/Lord/Paice)
From "In Rock", 1970.
|----------------------------|---------------------------------|--------------------------------|
|*------------------O--O--1--|---2----------------------------*|--------------------------O---1-|
|*--2---2---O-H-2------------|--------------------------O---1-*|---2---O---1---2---3---4--------|
|----------------------------|-------O--1---2---3---4----------|--------------------------------|
verse 3x
|---------------|---------------------|------------------------|------------------------|
|*-----2-----2--|------2-------------*|------------------------|---------2--------------|
|*--------------|--------------------*|---2--2--2--O-----O--1--|---2--2-----5--2--------|
|---O-----O-----|---O-----O--O--3--5--|---------------3--------|------------------5--3--|
|---------|
|---------|
|---------|
|---O--O--|
intro 1x verse 1x intro 1x
guitar solo
4x 2x
|---------------|---------------------|---------|---------------------3--4--|
|*-----2-----2--|------2-------------*|*-------*|---------3--4--------------|
|*--------------|--------------------*|*-------*|---1--2--------1--2--------|
|---O-----O-----|---O-----O--O--3--5--|---2--2--|---------------------------|
|------------------------|
|------------------O--1--|
|---O--1--2--3--4--------|
|------------------------|
verse 1x
4x
|-------------------------|---------------------------|---------------------------|
|*---------------O--O--1--|---2----------------------*|---------------------O--1--|
|*--2--2--O-H-2-----------|---------------------O--1-*|---2--O--1--2--3--4--------|
|-------------------------|------O--1--2--3--4--------|---------------------------|
|---------------------3--4--|------------------------|------|
|---------3--4--------------|------------------O--1--|------|
|---1--2--------1--2--------|---O--1--2--3--4--------|------|
|---------------------------|------------------------|---O--|





     
     
    Аудио шедевры Deep Purple.
     
     
    Deep Purple, Higwaystar, Video.
                      
     
     
     Lirycs   Lirycs  Discographies Ian Gillan  Discographies Roger Glover  Discographies John Lord  Discographies Richard Blackmore  Discographies Ian Paice

    Deep Purple



      Deep Purple Magazine Gallery. 1-5  Deep Purple Magazine Gallery. 6-9  Deep Purple Magazine Gallery. 10-12  Ian Gillan Magazine Gallery  Purple Personnel Magazine Gallery

        
 
 
Russian Unofficial Fan Site Deep Purple 2005 © 2019
 Яндекс цитирования