Sds keramik купить плитку klinkerrus.ru/shops/sds/.


Lazy 2
(Blackmore/Gillan/Glover/Lord/Paice)
From "Machine Head", 1972
Bass Tablature
G||------------------|------------------|------------------|------------------|
D||------------------|------------------|------------------|------------------|
A||------------------|------------------|------------------|------------------|
E||------------------|------------------|------------------|------------------|

------------------|------------------|------------------|------------------|
------------------|------------------|------------------|------------------|
------------------|------------------|------------------|------------------|
------------------|------------------|------------------|------------------|

------------------|------------------|------------------|------------------|
------------------|------------------|------------------|------------------|
------------------|------------------|------------------|------------------|
------------------|------------------|------------------|------------------|

------------------|------------------|------------------|------------------|
------------------|------------------|------------------|------------------|
------------------|------------------|------------------|------------------|
------------------|------------------|------------------|------------------|

------------------|------------------|------------------|------------------|
------------------|------------------|------------------|------------------|
------------------|------------------|------------------|------------------|
------------------|------------------|------------------|------------------|

------------------|------------------|------------------|------------------|
------------------|------------------|------------------|------------------|
------------------|------------------|------------------|------------------|
------------------|------------------|------------------|------------------|

------------------|------------------|------------------|------------------|
------------------|------------------|------------------|------------------|
------------------|------------------|------------------|------------------|
------------------|------------------|------------------|------------------|

------------------|------------------|------------------------|
------------------|------------------|------------------------|
------------------|------------------|------------------------|
------------------|------------------|------------------------|

------------------|------------------|------------------|------------------|
------------------|------------------|------------------|------------------|
------------------|------------------|------------------|------------------|
------------------|------------------|------------------|------------------|

------------------|------------------|------------------|------------------|
------------------|------------------|------------------|------------------|
------------------|------------------|------------------|------------------|
------------------|------------------|------------------|------------------|

------------------|------------------|------------------|------------------|
------------------|------------------|------------------|------------------|
------------------|------------------|------------------|------------------|
------------------|------------------|------------------|------------------|

-------------------|------------------|------------------|-------------------|
-------------------|------------------|------------------|-------------------|
-------------------|------------------|------------------|-------------------|
----------------1--|------------------|------------------|----1--------------|

-------------------|-------------------|---------------------|
-------------------|-------------------|---------------------|
--1----------------|--1----------------|---------------------|
-------------------|-------------------|--1------------1/-3--|

-------------------|--------------|-------------------|------------------|
-------------------|--------------|-------------------|------------------|
-------------------|--------------|-------------------|------------------|
--1----------------|--------------|----1--------------|------------------|

-------------------|-------------------|---------------------|
-------------------|-------------------|---------------------|
-------------------|----------------3--|----3----3----3------|
----1--------------|-------------------|---------------------|

--------------------------|----------------------------|
--------------------------|----------------------------|
--------------------------|------------------1---------|
--1--1--1--1--1--1--1--1--|--1--1--1--1--1-4---4-1--1--|

-------------------------|----------------------------|
-------------------------|----------------------------|
--1--1--1-----1--1--1----|-----------------1-3-1------|
-----------4-------------|--1--1--1----1-4-------4-2--|

---------------------------|--------------------------|
--------------1------------|--------------------------|
----------3-4-----------1--|------------1-3-1---------|
--4--4--4---------3--4-----|--1--1--1-4-------3-------|

-------------------------|-------------------------------|
-------------------------|----------3-1------------------|
-------------------------|------1-3-----3-1-3--3-1-------|
--1--1--1----1--1--1-4---|--1-4--------------------1--1--|

----------------------|------------------------|-------------------------|
----------------------|------------------------|-------------------------|
--1--------------1----|------------------------|----------------1--------|
---------0--1---------|--1--1--4----1--1--4----|--4--4--4--4-------4--3--|

---------------------------|------------------------------|
----------------3----------|------------------------------|
------------1-3----1-3-----|------------------1---1---1---|
--1--1--1-4----------------|--1--1--1-4---1-4---4---4---4-|

-----------------------------|-------------------------|
-----------------------------|-------------------------|
--1---1---1------------------|--1--1--1-----1--1--1----|
----4---4---4-1--1--1--1--1--|-----------4-------------|

-------------------------|--------------------------|--------------------------|
-------------------------|-----------0--1-----------|--------------------------|
-------------------------|-----3--4--------1--------|------------1---1---------|
--1--1--1----1--1--1--3--|--4-----------------4--3--|--1--1--1-4---4----4------|

--------------|-------------------|------------------|-------------------|
--------------|-------------------|------------------|-------------------|
--------------|-------------------|------------------|-------------------|
--------------|----1--------------|------------------|----1--------------|

-------------------|---------------------|--------------------------|
-------------------|---------------------|--------------------------|
----------------3--|----3----3----3------|--------------------------|
-------------------|---------------------|--1--1--1--1--1--1--1--1--|

----------------------------|-------------------------|
----------------------------|-------------------------|
------------------1---------|--1--1--1-----1--1--1----|
--1--1--1--1--1-4---4-1--1--|-----------4-------------|

----------------------------|---------------------------|
----------------------------|--------------1------------|
-----------------1-3-1------|----------3-4-----------1--|
--1--1--1----1-4-------4-2--|--4--4--4---------3--4-----|

--------------------------|--------------------------|
--------------------------|--------------------------|
------------1-3-1---------|--------------------------|
--1--1--1-4-------3-------|--1--1--1--1--1--1--1-4---|

-------------------------------|-----------------------|
----------3-1------------------|-------1---------------|
------1-3-----3-1-3--3-1-------|--1--------------1-----|
--1-4--------------------1--1--|----------0--1---------|

------------------------|-------------------------|---------------------------|
------------------------|-------------------------|----------------3----------|
------------------------|----------------1--------|------------1-3----1-3-----|
--1--1--4---1--1--4-----|--4--4--4--4-------4--3--|--1--1--1-4----------------|

------------------------------|-----------------------------|
------------------------------|-----------------------------|
------------------1---1---1---|--1---1---1------------------|
--1--1--1-4---1-4---4---4---4-|----4---4---4-1--1--1--1--1--|

--------------------------|--------------------------|
--------------------------|--------------------------|
--1--1--1-----1--1--1-----|--------------------------|
-----------4-----------4--|--1--1--1--1--1--1--1--3--|

--------------------------|--------------------------|--------------|
-----------0--1-----------|--------------------------|--------------|
-----3--4--------1--------|------------1---1---------|--------------|
--4-----------------4--3--|--1--1--1-4---4----4------|--------------|

-------------------|------------------|-------------------|-------------------|
-------------------|------------------|-------------------|-------------------|
-------------------|------------------|-------------------|----------------3--|
----1--------------|------------------|----1--------------|-------------------|

----------------------|-----------------------|--------------------------|
----------------------|----0----0----0---0----|--------------------------|
----3----3----3---3---|-----------------------|--------------------------|
----------------------|--------------------1--|--3--3--3--3--3--3--3--3--|

--------------------------|---------------------------|
--------------------------|---------------------------|
--------------------------|--3--3--3--3--3--3--3--3---|
--3--3--3--3--3--3--3--3--|-------------------------1-|

--------------------------|--------------------------|------------------------|
--------------------------|--------------------------|------------------------|
--------------------------|--1--1--1--1--------------|------------------------|
--3--3--3--3--3--3--3--3--|--------------1--1--1--1--|--3--3--3--3--3--3------|

---------------------------|--------------------------|
---------------------------|--------------------------|
---------------------------|--------------------------|
--3--3--3--3--3--3--3--1-2-|--3--3--3--3--3--3--3--3--|

---------------------------|---------------------------|
---------------------------|---------------------------|
--3--3--3--3--3--3--3--3---|-------------------------1-|
-------------------------1-|--3--3--3--3--3--3--3--3---|

---------------------------|------------------------|--------------------------|
---------------------------|------------------------|--------------------------|
--1--1--1--1-0----0--1--3--|------------------------|-----------------------1--|
---------------1-----------|--3--3--3-1---3-1-------|--3--3-1---1--3--3-1------|

--------------------------|------------------------|
--------------------------|------------------------|
--------------------------|------------------------|
--3--3-1---1--3--3-1---3--|--3----1--2--3--1--3----|

------------------------------|--------------------------|
------------------------------|--------------------------|
-----------1------------------|--1--1--1--1--------------|
--3--3-1-3---3-1-3--3-1--1-3--|--------------1--1--1--1--|

------------------------|------------------------------|
------------------------|------------------------------|
------------------------|---------------------------1--|
--3--3--3-1---3-1-------|--3--3--1----1--3--3--1-------|

--------------------------------------|----------------------------|
--------------------------------------|----------------------------|
-----1--1--------0--0--1--1--0--0-----|--------------0-0-1-1-3-1---|
--3--------3--3--------------------3--|--3-1---1--3----------------|

----------------------------|---------------------------|
----------------------------|--------0-0-3--------------|
------------------1---------|--1--1------------3--1-----|
--3-3-1----1--3-3----3-3-3--|---------------1--------1--|

--------------------------|------0--------------0----------|
--------------------------|--------0-3----0-------0-3----0-|
--------------------------|-------------3--------------3---|
--3--3--3--3--3--3--3--3--|--3-3------------3-3------------|

------0--------------0---------|------5-0-3----0-----5-0-3----0-|
--------0-3----0-------0-3--0--|-------------3--------------3---|
-------------3-----------------|--3-3------------3-3------------|
--3-3------------3-3-----------|--------------------------------|

------0--------------0----------|--3--------------2--3--4--|
--------0-3----0-------0-3----0-|-----0--1--2--3-----------|
-------------3--------------3---|--------------------------|
--3-3------------3-3------------|--------------------------|

-----0------------0----------|------0--------------0----------|
-------0-3----0-----0-3----0-|--------0-3----0-------0-3----0-|
------------3------------3---|-------------3--------------3---|
--3--------------------------|--3-3------------3-3------------|

------0--------------0---------|------5-0-3----0-----5-0-3----0-|
--------0-3----0-------0-3--0--|-------------3--------------3---|
-------------3-----------------|--3-3------------3-3------------|
--3-3------------3-3-----------|--------------------------------|

------0--------------0----------|--3--------------2--3--4--|
--------0-3----0-------0-3----0-|-----0--1--2--3-----------|
-------------3--------------3---|--------------------------|
--3-3------------3-3------------|--------------------------|

------0-------------0---------|--------------------------|--------------------|
--------0-3-----------0-3-----|--------------------------|--------------------|
-------------3----------------|--0--0--0--0--0--0--0--0--|--0--0--0--0--0--0--|
--3-3-----------3-3--------3--|--------------------------|--------------------|

--------------------------|--------------------------|
--------------------------|--------------------------|
--0--0--0--0--0--0--0--0--|--0--0--0--0--0--0--0--0--|
--------------------------|--------------------------|

--------------------------|--------------------------|
--------------------------|--------------------------|
--------------------------|-----------------0--1--2--|
--0--0--0--0--0--0--0--0--|--0--1--2--3--4-----------|

--------------------------|---------------------------|
--------------------------|---------------------------|
--0--0--------0--0--------|--0--0--------0--0---------|
-------0-3---------0-3----|-------0-3---------0-3--0--|

----------------------------|--------------------------|
--0--0---------0--0---------|--------------------------|
-------0-3----------0-3-----|--0--0--------0--0--------|
------------3------------3--|-------0-3---------0-3----|

--------------------------|--------------------------|
--------------------------|--------------------------|
--3--------------2--3--4--|--0--0--------0--0--------|
-----0--1--2--3-----------|-------0-3---------0-3----|

---------------------------|----------------------------|
---------------------------|--0--0---------0--0---------|
--0--0--------0--0---------|-------0-3----------0-3-----|
-------0-3---------0-3--0--|------------3------------3--|

--------------------------|--------------------------|------------------------|
--------------------------|--------------------------|------------------------|
--0--0--------0--0--------|--3--------------2--3--4--|--0--0--------0---------|
-------0-3---------0-3----|-----0--1--2--3-----------|-------0-3-------0------|

----------------------------|--------------------------0-0-----|
----------------------------|----------0-0-1-1-2-2-4-4-----4-4-|
--0-0-----------------------|--0-0-4-4-------------------------|
------------0-0-2-2-3-3-4-4-|----------------------------------|

----------------------------------|---------------------------|
--0-0-----------------------------|---------------------------|
------------------0-0-2-2-3-3-2-2-|--0-0-------------0--------|
------2-2-3-3-4-4-----------------|------3-3-0-0--------3--0--|

--------------------------------|-----------------------------|
----------------------------0-0-|-----------------------------|
--------------------2-2-3-3-----|--0-0---------0-------0------|
----0-0-1-1-2-2-3-3-------------|----------0-0---3-0-0---3-0--|

--------------------------------|----------------------------------|
----------------------------0-0-|----------------------------------|
--------------------2-2-3-3-----|--0---------------0---------------|
----0-0-1-1-2-2-3-3-------------|-----3--2--0---------3--2--0------|

--------------------------------|-------------------|
----------------------------0-0-|-------------------|
--------------------2-2-3-3-----|--0----------------|
----0-0-1-1-2-2-3-3-------------|-------------------|

----------------------------------|-----------------------------------|
-------------------2-----0--1--2--|--0--------------------------------|
----------0--1--2-----2-----------|---------------------0----3--2-----|
--0----4--------------------------|-----2--2--3----4---------------3--|

-------------------------------------|---------------------|------------------|
-------------------------------------|---------------------|------------------|
--0----0-----0--------0--------0-----|-------1---0---------|------------------|
----------3-----3--2-----2--1-----1--|--0------------------|------------------|

------------------|------------------||
------------------|------------------||
------------------|------------------||
------------------|------------------||





     
     
    Аудио шедевры Deep Purple.
     
     
    Deep Purple, Higwaystar, Video.
                      
     
     
     Lirycs   Lirycs  Discographies Ian Gillan  Discographies Roger Glover  Discographies John Lord  Discographies Richard Blackmore  Discographies Ian Paice

    Deep Purple



      Deep Purple Magazine Gallery. 1-5  Deep Purple Magazine Gallery. 6-9  Deep Purple Magazine Gallery. 10-12  Ian Gillan Magazine Gallery  Purple Personnel Magazine Gallery

        
 
 
Russian Unofficial Fan Site Deep Purple 2005 © 2019
 Яндекс цитирования