Slow Train 1
(Blackmore/Gillan/Glover/Lord/Paice)
A out-take from the "Fireball" sessions 1971. Now available on the remastered CD edition of "Fireball".
Intro (part A)
2x
E|---------------------------------------------------------------------|
B|---------------------------------------------------------------------|
G|---------------------------------------------------------------------|
D|---------------------------------------------------------------------|
A|-------------------------3~--------------3---------------------------|
E|-0-3-5-0-3-5-0-3-5-0-3-5---5-0-3-5-0-3-5---5-3-0-3-5-----------------|
E|---------------------------------------------------------------------|
B|---------------------------------------------------------------------|
G|---------------------------------------------------------------------|
D|---------------------------------------------------------------------|
A|-0-3-5-3-5h6p5-5-0----0-3-0-5-3-0------------------------------------|
E|--------------------3------------------------------------------------|
E|---------------------------------------------------------------------|
B|---------------------------------------------------------------------|
G|---------------------------------------------------------------------|
D|------------------------5---7~~--------------------------------------|
A|-0-3-5-3-5h6p5-5-0--5-7---7------------------------------------------|
E|---------------------------------------------------------------------|
------------------------------------------------------------------------
Verses
E|---------------------------------------------------------------------|
B|---------------------------------------------------------------------|
G|---------------------------------------------------------------------|
D|---------------------------------0-12-0-0-10-0-0-9-0-0-10-0-12-------|
A|-0-12-0-0-10-0-0-12-0-0-10-0-12--------------------------------------|
E|---------------------------------------------------------------------|
E|---------------------------------------------------------------------|
B|---------------------------------------------------------------------|
G|---------------------------------------------------------------------|
D|---------------------------------0-12-0-0-10-0-0-9-0-0-10-0-12-------|
A|-0-12-0-0-10-0-0-12-0-0-10-0-9---------------------------------------|
E|---------------------------------------------------------------------|
------------------------------------------------------------------------
Aaaaaaa part :) (part B)
Ax8
Gx8
Ax8
Gx8
A G
E|----5-----3--|
B|----5-----3--|
G|----6-----4--|
D|----7-----5--|
A|----7-----5--|
E|----5-----3--|
------------------------------------------------------------------------
Small part before solo (part C)
E|---------------------------------------------------------------------|
B|---------------------------------------------------------------------|
G|--5------------------------------------------------------------------|
D|----7-5--------------------------------------------------------------|
A|--------7-5----------------------------------------------------------|
E|------------8-5------------------------------------------------------|
------------------------------------------------------------------------
Song progression :
Part A
Verse 1
Part B
Verse 2
Part C
Part A
Verse 3
Part B
Verse 4
Part C
Solo
Part A
Verse 5
Part B
Verse 6
Part C





     
     
    Аудио шедевры Deep Purple.
     
     
    Deep Purple, Higwaystar, Video.
     
                      
     
     
     Lirycs   Lirycs  Discographies Ian Gillan  Discographies Roger Glover  Discographies John Lord  Discographies Richard Blackmore  Discographies Ian Paice

    Deep Purple



      Deep Purple Magazine Gallery. 1-5  Deep Purple Magazine Gallery. 6-9  Deep Purple Magazine Gallery. 10-12  Ian Gillan Magazine Gallery  Purple Personnel Magazine Gallery

        
 
 
Russian Unofficial Fan Site Deep Purple 2005 © 2021
 Яндекс цитирования