Slow Train 2
(Blackmore/Gillan/Glover/Lord/Paice)
A out-take from the "Fireball" sessions 1971. Now available on the remastered CD edition of "Fireball".
********************
* *
* h = hammer on *
* p = pull off *
* *
********************

Riff: (Play 2 times)
E|--------------------------------------------------------
B|--------------------------------------------------------
G|--------------------------------------------------------
D|--------------------------------------------------------
A|--------------------------3----------------3------------
E|--0-3-5-0-3-5-0-3-5-0-3-5---5--0-3-5-0-3-5---5-3-0-3-5--

(This only 1x)
E|-----------------------------------------------------------------
B|-----------------------------------------------------------------
G|-----------------------------------------------------------------
D|---------------------------------------------------------5---7---
A|------5---5h6p5---------3---5-3--------5---5h6p5-----5h7---7-----
E|--5-8---8-------8-5-3h5---5-----5--5-8---8-------8-5-------------

Verse:
A
How can you live in such a state
D
Your mind is empty and you are full of hate...

Chorus:
A
Aaaaaaaaaaah
G
Aaaaaaaaaaah
A
Gonna be a long time, babe
D
Before we get it sorted out all right...





     
     
    Аудио шедевры Deep Purple.
     
     
    Deep Purple, Higwaystar, Video.
     
                      
     
     
     Lirycs   Lirycs  Discographies Ian Gillan  Discographies Roger Glover  Discographies John Lord  Discographies Richard Blackmore  Discographies Ian Paice

    Deep Purple



      Deep Purple Magazine Gallery. 1-5  Deep Purple Magazine Gallery. 6-9  Deep Purple Magazine Gallery. 10-12  Ian Gillan Magazine Gallery  Purple Personnel Magazine Gallery

        
 
 
Russian Unofficial Fan Site Deep Purple 2005 © 2021
 Яндекс цитирования