Speed King (Bass)
(Blackmore/Gillan/Glover/Lord/Paice)
From "In Rock", 1970
A 2x
1,3x good golly miss molly when she was blue light
2x saturday just got gonna fool gonna save
|------|------------|------------|------5---3---------|------------|
|---3--|*--5-----3--|---5-----3--|---5----------5--3--|---5-----3--|
|------|------------|------------|--------------------|------------|
|------|------------|------------|--------------------|------------|
tutti frutti oh so rooty east and 1x Lucille was oh
people gonna people gonna gonna have my soul 2,3x hard headed woman
|------------|------------|------------|------------|--------------------------|
|---5-----3--|---5-----3--|---5-----3--|---5-----3--|---5---5---5---5---5---3--|
|------------|------------|------------|------------|--------------------------|
|------------|------------|------------|------------|--------------------------|
so real when she didn't dady's will
soft hearted they been causing all began
|--------------------------|-------5----3----------|--------------------------|
|---5---5---5---5---5---3--|---5------------5---3--|---5---5---5---5---5---3--|
|--------------------------|-----------------------|--------------------------|
|--------------------------|-----------------------|--------------------------|
come on baby me crazy do it
take a little take a little beans gonna rock and roll
|--------------------------|--------------------------|--------------------------|
|---5---5---5---5---5---3--|---5---5---5---5---5---3--|---5---5---5---5---5---3--|
|--------------------------|--------------------------|--------------------------|
|--------------------------|--------------------------|--------------------------|
cause I'm a
new orleans
|----------|
|---5------|
|-------1--|
|----------|
B
% 2,3
speed king you got to hear me sing
|------------------------------|---------------|------------------------------|
|------------------------------|---2--3--4--5--|------------------------------|
|---3---1---3---1---3---1---3--|---------------|---3---1---3---1---3---1---3--|
|------------------------------|---------------|------------------------------|
yeah I'm a speed king see to CODA 3
|---------------|------------------------------|---------------|------|
|---2--3--4--5--|------------------------------|---2--3--4--5--|------|
|---------------|---3---1---3---1---3---1---3--|---------------|---1--|
|---------------|------------------------------|---------------|------|
me (to CODA 1,2) fly 1___________ 2____
|------|------5-----3--------|---------------|-----|------|-----|------|
|---3--|------------------5--|------3--------|-----|---3-*|-----|---3--|
|------|---3-----3-----3-----|---3-----6--1--|-----|-----*|-----|------|
|------|---------------------|---------------|-----|------|-----|------|
C
|--------------------------|----------------------|--------------|------------------|
|---5---5---3---5---3---5--|---5---5-----------3--|---5---3---5--|---5-----------3--|
|--------------------------|-----------3---5------|--------------|-------3---5------|
|--------------------------|----------------------|--------------|------------------|
|--------------------------|----------------------|--------------|------------------|
|---5---5---3---5---3---5--|---5---5-----------3--|---5---3---5--|---5-----------3--|
|--------------------------|-----------3---5------|--------------|-------3---5------|
|--------------------------|----------------------|--------------|------------------|
D
|------------|------------|------------|------------|------------|------------|------------|
|---5--3--5--|---------3--|---5--3--5--|---------3--|---5--3--5--|---------3--|---5--3--5--|
|------------|---3--5-----|------------|---3--5-----|------------|---3--5-----|------------|
|------------|------------|------------|------------|------------|------------|------------|
|------------|------------|------------|------------|------------|------------|------------|
|---------3--|---5--3--5--|---------3--|---5--3--5--|---------3--|---5--3--5--|---------3--|
|---3--5-----|------------|---3--5-----|------------|---3--5-----|------------|---3--5-----|
|------------|------------|------------|------------|------------|------------|------------|
|------------|------------|------------|------------|------------|------------|------------|
|---5--3--5--|---------3--|---5--3--5--|---------3--|---5--3--5--|---------3--|---5--3--5--|
|------------|---3--5-----|------------|---3--5-----|------------|---3--5-----|------------|
|------------|------------|------------|------------|------------|------------|------------|
|------------|------3-----|------------|------------|---------3--|------------|------------|
|---------3--|---5-----5--|---------3--|---5--3--5--|------------|---5--3--5--|---------3--|
|---3--5-----|------------|---3--5-----|------------|---3--5-----|------------|---3--5-----|
|------------|------------|------------|------------|------------|------------|------------|
|------------|------------|------------|------------|
|---5--3--5--|---------3--|---5--3--5--|---------3--|
|------------|---3--5-----|------------|---3--5-----|
|------------|------------|------------|------------|
E
|------------|------------------|------------|------------------|---------------------|
|---5--3--5--|---5--5--------3--|---5--3--5--|---5--5--------3--|---5--5--3--5--3--5--|
|------------|---------3--5-----|------------|---------3--5-----|---------------------|
|------------|------------------|------------|------------------|---------------------|
|------------------|---------------------|------------------|
|---5--5--------3--|---5--5--3--5--3--5--|---5--5--------3--|
|---------3--5-----|---------------------|---------3--5-----|
|------------------|---------------------|------------------|
F
|---------------------|------------------|---------------------|------------------|
|---5--5--3--5--3--5--|---5--5--------3--|---5--5--3--5--3--5--|---5--5--------3--|
|---------------------|---------3--5-----|---------------------|---------3--5-----|
|---------------------|------------------|---------------------|------------------|
G
|---------------------|------------------|---------------------|------------------|
|---5--5--3--5--3--5--|---5--5--------3--|---5--5--3--5--3--5--|---5--5--------3--|
|---------------------|---------3--5-----|---------------------|---------3--5-----|
|---------------------|------------------|---------------------|------------------|
|---------------------|------------------|---------------------|------------------|
|---5--5--3--5--3--5--|---5--5--------3--|---5--5--3--5--3--5--|---5--5--------3--|
|---------------------|---------3--5-----|---------------------|---------3--5-----|
|---------------------|------------------|---------------------|------------------|
|---------------------|------------------|---------------------------|
|---5--5--3--5--3--5--|---5--5--------3--|---5--3--------3--1--3--1--|
|---------------------|---------3--5-----|---------5--4--------------|
|---------------------|------------------|---------------------------|
H (gliss)
|------------------|------------------------|---------------------|------------------------|
|------------------|------------------------|---------------------|---------3--4--5--6--7--|
|---5--5--5--5--5--|---5-----3--5-----3--5--|---5--5--5-----3--5--|---5--5-----------------|
|------------------|------5--------5--------|------------5--------|------------------------|
|------------5--6--7--|---5-----------------|---------------|---------------|
|---------------------|------7--5-----------|---------------|---------------|
|---5--5--5-----------|------------8--5-----|---5--5--3--5--|---5--5--5-----|
|---------------------|------------------8--|---------------|------------5--|
I
come on
|------------|------------|------------|------------|---------------------|
|------------|------------|------------|------------|---------------------|
|---5--3--5--|---3--5--3--|---5--3--5--|---3--5--3--|---5--5--6--6--7--7--|
|------------|------------|------------|------------|---------------------|
ah ah (gliss) ah___________________________________(gliss)
|--------------------------|---------------------|--------------------------|
|--------------------------|---------------------|--------------------------|
|---7--8--8--9--9--1O--1O--|---5--5--6--6--7--7--|---7--8--8--9--9--1O--1O--|
|--------------------------|---------------------|--------------------------|
|---------------------|--------------------------|-----------------------------------|
|---------------------|--------------------------|-----------------------------------|
|---5--5--6--6--7--7--|---7--8--8--9--9--1O--1O--|---11--11--12--12--13--13--14--14--|
|---------------------|--------------------------|-----------------------------------|
|----------------------------|
|----------------------------|
|---15--15--16--16--17------3|
|----------------------------|
CODA 1 D.S. 2
fly (gliss)
|---------------|---------5--6--7--9--1O--|
|---5--5--5--5--|---5--8------------------|
|---------------|-------------------------|
|---------------|-------------------------|
CODA 2
ha yeah I'm a
|------|-----------|
|---5--|-----------|
|------|-----------|
|------|-----------|
CODA 3
me J (gliss)_________________________________________________
|------|------|------|------|------|------|------|------|------|------|
|---3--|---5--|---5--|---5--|---5--|---5--|---5--|---5--|---5--|---5--|
|------|------|------|------|------|------|------|------|------|------|
|------|------|------|------|------|------|------|------|------|------|





     
     
    Аудио шедевры Deep Purple.
     
     
    Deep Purple, Higwaystar, Video.
                      
     
     
     Lirycs   Lirycs  Discographies Ian Gillan  Discographies Roger Glover  Discographies John Lord  Discographies Richard Blackmore  Discographies Ian Paice

    Deep Purple



      Deep Purple Magazine Gallery. 1-5  Deep Purple Magazine Gallery. 6-9  Deep Purple Magazine Gallery. 10-12  Ian Gillan Magazine Gallery  Purple Personnel Magazine Gallery

        
 
 
Russian Unofficial Fan Site Deep Purple 2005 © 2019
 Яндекс цитирования