Strange Kind Of Woman 5
(Blackmore/Gillan/Glover/Lord/Paice)
Single, 1971. Also included on the US versions of the "Fireball" album, 1971,
and now available on the remastered CD edition of "Fireball".
"Made In Japan" version, 1972
Intro:
--11-8-------------8---------------------------------------------------
-------11-8----8-----11-10-8---------------------------------------10--
------------11---------------11-10-8----10-8---------------8-------9---
-------------------------------------10------10-8---8-9-10---8-10--8---
--------------------------------------------------9----------------9---
-----------------------------------------------------------------------

B5 D5 B5
There once was a wo-man
D5 B5
A strange kind of wo-man
A5 E5 B5
The kind that gets written down in history
...
B5 D5 B5 A5 B5 D5 B5 A5 B5
I want you, I need you, I gotta be near you
A5 E5 B5
I spent my money as I took my turn
B5 D5 B5 A5 B5 D5 B5 A5 B5
I want you, I need you, I gotta be near you
A5 E5 B5
Ooh, I got a strange kind of woman, yes I have
...
She was so fat
5:04
------------|--------------------------------------------|------------------------7---7-10b---
--7-10-10b--|--------------------------------------------|----------------------------7-------
------------|-------7b----------*7b*(<-10x)----------7b--|---7b-7b---7b-7b-7b---9b--9b--------
------------|---7-9---9---7-9----------------9---7-9-----|-9-------9--------------------------
------------|-9---------9-----9----------------9---------|------------------------------------
------------|--------------------------------------------|------------------------------------
-7-------------7--------------------------|------17-----17-------------------|----------------
---10-10-7\6/7---7------------------------|--17b----17b-----17b-15-17----15s\|-13br-12br-13br-
-------------------7b-9-7h9p7---------7b--|---------------------------16-----|----------------
------------------------------9-7-9-9-----|----------------------------------|----------------
------------------------------------------|----------------------------------|----------------
------------------------------------------|----------------------------------|----------------
--------9-10-11-12-15-16-17-18br--------------10-12-13-14-15-18-18b---------|--------14-17b---
-----12-------------------------------------12------------------------------|-----15----------
--11-----------------------------17-----*11-------------------------*-(4x)--|--16-------------
----------------------------------------------------------------------------|-----------------
------------------------------------15--------------------------------------|-----------------
----------------------------------------------------------------------------|-----------------
---------14-17b---------|-------14-13~--|--------14-13-14-13-14-13-14-18-18b-|-13-14--13-14---
------15----------------|----15---------|-----15-----------------------------|----------------
-*-16-----------*-(2x)--|-16------------|--16--------------------------------|----------------
------------------------|---------------|------------------------------------|----------------
------------------------|---------------|------------------------------------|----------------
------------------------|---------------|------------------------------------|----------------
-13-14-13-14---------|---------------------------------------------|-------------------------|
-------------15--15b-|--12b--13b---13b-11-13----11----------11-11b-|-13b-(4x)--15b--15b--16b-|
---------------------|-----------------------12----12-10-12--------|-------------------------|
---------------------|---------------------------------------------|-------------------------|
---------------------|---------------------------------------------|-------------------------|
---------------------|---------------------------------------------|-------------------------|
--*17b-17-14-13-14*-(3x)--|
--------------------------|
--------------------------|
--------------------------|
--------------------------|
Chords:
D5 E5 A5 B5
-x-- -x- -x- -x-
-x-- -x- -x- -x-
-x-- -x- -x- -x-
-12- -2- -7- -9-
-12- -2- -7- -9-
-10- -0- -5- -7-





     
     
    Аудио шедевры Deep Purple.
     
     
    Deep Purple, Higwaystar, Video.
     
                      
     
     
     Lirycs   Lirycs  Discographies Ian Gillan  Discographies Roger Glover  Discographies John Lord  Discographies Richard Blackmore  Discographies Ian Paice

    Deep Purple



      Deep Purple Magazine Gallery. 1-5  Deep Purple Magazine Gallery. 6-9  Deep Purple Magazine Gallery. 10-12  Ian Gillan Magazine Gallery  Purple Personnel Magazine Gallery

        
 
 
Russian Unofficial Fan Site Deep Purple 2005 © 2021
 Яндекс цитирования