https://www.condom-shop.ru выгодная цена на анальные пробки.


The Mule 2
(Blackmore/Gillan/Glover/Lord/Paice)
From "Fireball" 1971.
INTRO G D5 D5 A G D5 D5 RIFF
E-|--0-------|--3---|--5----|--5----|-----|--0---|--3---|--5----|--5----|---------------|
B-|--2-------|--0---|--5----|--5----|-----|--2---|--0---|--5----|--5----|---------------|
G-|--2-------|--0---|--7----|--7----|-----|--2---|--0---|--7----|--7----|--------4--6---|
D-|--2-------|--0---|--7----|--7----|--7~-|--2---|--0---|--7----|--7----|--7------------|
A-|--0-------|--2---|--5----|--5----|-----|--0---|--2---|--5----|--5----|---------------|
E-|----------|--3---|-------|-------|-----|------|--3---|-------|-------|---------------|


E-|------------|--------|------------|-----------|-----------|-------------|
B-|------------|--5--8~-|--8--7h8p7p-|--5--7--5h-|--7p3--5---|--3h5p3------|
G-|--7--6--7---|--------|------------|-----------|-----------|---------6---|
D-|------------|--------|------------|-----------|-----------|-------------|
A-|------------|--------|------------|-----------|-----------|-------------|
E-|------------|--------|------------|-----------|-----------|-------------|

D5 singed part
E-|---------------:-------------------:------------|---------------|---------------|
B-|--3------------:-------------------:------------|---------------|---------------|
G-|-----6---------:-------------------:------------|--6------------|--------4------|
D-|--------7--5---:--5/-7-------------:--------7---|-----7---------|-----5-----5---|
A-|---------------:-------------------:-----7------|--------7------|--5------------|
E-|---------------:-------------------:--5---------|-----------3---|---------------|

how can i.... for the mule
E-|---------------|-----------5---:--7--------------7---:--7-------------7---:
B-|---------------|--5--------5---:--8--------------8---:--7-------------7---:
G-|-----------7---|-----7-----7---:--9--------------9---:--4-------------4---:
D-|--------7------|--------7--7---:--9--------------9---:--7-------------7---:
A-|--5--5---------|-----------5---:--7--------------7---:--7-------------7---:
E-|---------------|---------------:---------------------:--5-------------5---:

A5 all during the keyboard solo then the guitar solo
E-|----------:---------:---------:-------------------------------------:-------------------------------|
B-|----------:---------:---------:-------------------------------------:-------------------------------|
G-|----------:---------:---------:-------------------------------------:---------------------------5---|
D-|----------:--7------:-----7---:-------------------------------------:------------------------7------|
A-|------7---:---------:--7------:-------------------------------------:-------------------------------|
E-|--5-------:-----5---:---------:-------------------------------------:-------------------------------|

E-|---------------------------------|-------------------------------------------|
B-|---------------------------------|-------------------------------------------|
G-|--------------5--------------5---|-----7p5-----5--------------5-----7p5------|
D-|--7--7--7--7-----7--7--7--7------|--7-------7-----7--7--7--7-----7-------7---|
A-|---------------------------------|-------------------------------------------|
E-|---------------------------------|-------------------------------------------|

E-|---------------------------------:---------------------------------|--------------------------------------|
B-|---------------------------------:--8b10-8b10-8b10-8b10-8b10-8b10--|--8b10-8b10-8b10-8b10-8b10-8b10-8b10--|
G-|--5-----7p5-----5-----7p5-----5~-:---------------------------------|--------------------------------------|
D-|-----7-------7-----7-------7-----:---------------------------------|--------------------------------------|
A-|---------------------------------:---------------------------------|--------------------------------------|
E-|---------------------------------:---------------------------------|--------------------------------------|

E-|-----------------5-------------------|-------------------------------------------------|
B-|--8b10----8b8b10----8--7--5----------|-------------------------------------------------|
G-|-------5---------------------7b8-7---|--5-----7--5-----------------5b------7p5-----5---|
D-|-------------------------------------|-----7--------7--5-----5--7----7--5-------7------|
A-|-------------------------------------|--------------------7----------------------------|
E-|-------------------------------------|-------------------------------------------------|


E-|-------------:--------------|------8--10--7--8--10-------------7--8--7---------:
B-|------8/10---:--10--10--8---|--10-------------------10--8--10-----------8/10---:
G-|--7b8--------:--------------|--------------------------------------------------:
D-|-------------:--------------|--------------------------------------------------:
A-|-------------:--------------|--------------------------------------------------:
E-|-------------:--------------|--------------------------------------------------:


E-|-------------------:---------------:---------------:-----------:---------|
B-|--10--8----10--8---:--7------------:--------7------:-----------:-----7---|
G-|---------7b--------:-----7--9--7---:--6--7-----7---:--6--7/9---:--9------|
D-|-------------------:---------------:---------------:-----------:---------|
A-|-------------------:---------------:---------------:-----------:---------|
E-|-------------------:---------------:---------------:-----------:---------|
with whammy bar
E-|----------------------|----------------------|-------------------------------:
B-|----------------------|----------------------|-------------------------------:
G-|--9p7p6/9--9p7p6--7---|--9--9p7p6--6--9p7p6h-|--7--6h7--6b7------------------:
D-|----------------------|----------------------|--------------7~---------------:
A-|----------------------|----------------------|-------------------------------:
E-|----------------------|----------------------|-------------------------------:
with whammy bar
E-|-------------|-----------------|--------
B-|-------------|-----------------|--------
G-|-------6--4h-|--6p4------------|--4-----
D-|--7/9--------|-------7--5--7---|-----7~~
A-|-------------|-----------------|--------
E-|-------------|-----------------|--------





     
     
    Аудио шедевры Deep Purple.
     
     
    Deep Purple, Higwaystar, Video.
     
                      
     
     
     Lirycs   Lirycs  Discographies Ian Gillan  Discographies Roger Glover  Discographies John Lord  Discographies Richard Blackmore  Discographies Ian Paice

    Deep Purple



      Deep Purple Magazine Gallery. 1-5  Deep Purple Magazine Gallery. 6-9  Deep Purple Magazine Gallery. 10-12  Ian Gillan Magazine Gallery  Purple Personnel Magazine Gallery

        
 
 
Russian Unofficial Fan Site Deep Purple 2005 © 2021
 Яндекс цитирования