Wring That Neck
(Blackmore/Evans/Lord/Paice)
From "The Book of Taliesyn", 1968
Wring that Neck intro
transcription by Nick Robinson
I'm fairly sure these are the right notes, I've suggested the fingering that I would use, although the final two sections might be played on one string lower. Make sure you use all f fingers wherever possible and try to pick all notes of the ascending run in sections 10/11 - it's worth the effort!

|------------6----
|-8-6h8p6-------8-
|----------0------
|-----------------
|-----------------
|-----------------
|------------6----
|-8-6h8p6-------8-
|----------0------
|-----------------
|-----------------
|----------------- |------------6----
|-8-6h8p6---------
|----------0------
|-----------------
|-----------------
|----------------- |------------6----
|-8-6h8p6---------
|----------0------
|-----------------
|-----------------
|-----------------
|------------6----
|-8-6h8p6-------8-
|----------0------
|-----------------
|-----------------
|----------------- |----6-8h9p8p6-8-6
|-6-8-------------
|7----------------
|-----------------
|-----------------
|----------------- |----6-8h9p8p6-8-6
|-6-8-------------
|7----------------
|-----------------
|-----------------
|----------------- |-----3h4p3---3---
|-3-6------6---6--
|3----------------
|5----------------
|-----------------
|-----------------
|-----------------
|-3-6-5-3---------
|3--------5--3--2-
|5----------------
|-----------------
|----------------- |--------------565
|-----------68----
|-------578-------
|---578-----------
|-68--------------
|----------------- |--------------565
|-----------68----
|-------578-------
|---578-----------
|-68--------------
|----------------- |-3---------------
|---6-3-6-3---3---
|-----------5-----
|-----------------
|-----------------
|-----------------
|-----------------
|----3------------
|-235-532---------
|--------535------
|-----------------
|----------------- (Chords)
GG C G C/C#/D





     
     
    Аудио шедевры Deep Purple.
     
     
    Deep Purple, Higwaystar, Video.
                      
     
     
     Lirycs   Lirycs  Discographies Ian Gillan  Discographies Roger Glover  Discographies John Lord  Discographies Richard Blackmore  Discographies Ian Paice

    Deep Purple



      Deep Purple Magazine Gallery. 1-5  Deep Purple Magazine Gallery. 6-9  Deep Purple Magazine Gallery. 10-12  Ian Gillan Magazine Gallery  Purple Personnel Magazine Gallery

        
 
 
Russian Unofficial Fan Site Deep Purple 2005 © 2019
 Яндекс цитирования